ISO-10303-21;
HEADER;
/* Generated by software containing ST-Developer
 * from STEP Tools, Inc. (www.steptools.com) 
 */
/* OPTION: strings as raw bytes, not using required /X/ escapes */

FILE_DESCRIPTION(
/* description */ ('Unknown'),
/* implementation_level */ '2;1');

FILE_NAME(
/* name */ '33300003',
/* time_stamp */ '2022-08-26T10:09:14+02:00',
/* author */ ('Unknown'),
/* organization */ ('GROHE AG'),
/* preprocessor_version */ 'ST-DEVELOPER v16.7',
/* originating_system */ 'DEX',
/* authorisation */ $);

FILE_SCHEMA (('AUTOMOTIVE_DESIGN {1 0 10303 214 3 1 1}'));
ENDSEC;

DATA;
#10=PROPERTY_DEFINITION_REPRESENTATION(#14,#12);
#11=PROPERTY_DEFINITION_REPRESENTATION(#15,#13);
#12=REPRESENTATION('',(#16),#190);
#13=REPRESENTATION('',(#17),#190);
#14=PROPERTY_DEFINITION('pmi validation property','',#205);
#15=PROPERTY_DEFINITION('pmi validation property','',#205);
#16=VALUE_REPRESENTATION_ITEM('number of annotations',COUNT_MEASURE(0.));
#17=VALUE_REPRESENTATION_ITEM('number of views',COUNT_MEASURE(0.));
#18=CONTEXT_DEPENDENT_SHAPE_REPRESENTATION(#28,#207);
#19=CONTEXT_DEPENDENT_SHAPE_REPRESENTATION(#29,#209);
#20=CONTEXT_DEPENDENT_SHAPE_REPRESENTATION(#30,#211);
#21=CONTEXT_DEPENDENT_SHAPE_REPRESENTATION(#31,#213);
#22=CONTEXT_DEPENDENT_SHAPE_REPRESENTATION(#32,#215);
#23=NEXT_ASSEMBLY_USAGE_OCCURRENCE('33300003','33300003','33300003',#216,
#217,'');
#24=NEXT_ASSEMBLY_USAGE_OCCURRENCE('33300003_0','33300003_0',
'33300003_0',#216,#218,'');
#25=NEXT_ASSEMBLY_USAGE_OCCURRENCE('id77','id77','id77',#216,#219,'');
#26=NEXT_ASSEMBLY_USAGE_OCCURRENCE('50.9697.1_Standard',
'50.9697.1_Standard','50.9697.1_Standard',#216,#220,'');
#27=NEXT_ASSEMBLY_USAGE_OCCURRENCE('BREP_1','BREP_1','BREP_1',#216,#221,
'');
#28=(
REPRESENTATION_RELATIONSHIP(' ',' ',#115,#116)
REPRESENTATION_RELATIONSHIP_WITH_TRANSFORMATION(#33)
SHAPE_REPRESENTATION_RELATIONSHIP()
);
#29=(
REPRESENTATION_RELATIONSHIP(' ',' ',#117,#116)
REPRESENTATION_RELATIONSHIP_WITH_TRANSFORMATION(#34)
SHAPE_REPRESENTATION_RELATIONSHIP()
);
#30=(
REPRESENTATION_RELATIONSHIP(' ',' ',#118,#116)
REPRESENTATION_RELATIONSHIP_WITH_TRANSFORMATION(#35)
SHAPE_REPRESENTATION_RELATIONSHIP()
);
#31=(
REPRESENTATION_RELATIONSHIP(' ',' ',#119,#116)
REPRESENTATION_RELATIONSHIP_WITH_TRANSFORMATION(#36)
SHAPE_REPRESENTATION_RELATIONSHIP()
);
#32=(
REPRESENTATION_RELATIONSHIP(' ',' ',#120,#116)
REPRESENTATION_RELATIONSHIP_WITH_TRANSFORMATION(#37)
SHAPE_REPRESENTATION_RELATIONSHIP()
);
#33=ITEM_DEFINED_TRANSFORMATION(' ',' ',#121,#127);
#34=ITEM_DEFINED_TRANSFORMATION(' ',' ',#121,#133);
#35=ITEM_DEFINED_TRANSFORMATION(' ',' ',#121,#134);
#36=ITEM_DEFINED_TRANSFORMATION(' ',' ',#121,#135);
#37=ITEM_DEFINED_TRANSFORMATION(' ',' ',#121,#136);
#38=SHAPE_REPRESENTATION_RELATIONSHIP('','',#115,#40);
#39=SHAPE_REPRESENTATION_RELATIONSHIP('','',#117,#41);
#40=ADVANCED_BREP_SHAPE_REPRESENTATION('',(#107),#191);
#41=ADVANCED_BREP_SHAPE_REPRESENTATION('',(#108),#192);
#42=PLANE('',#125);
#43=PLANE('',#126);
#44=PLANE('',#131);
#45=PLANE('',#132);
#46=ORIENTED_EDGE('',*,*,#54,.T.);
#47=ORIENTED_EDGE('',*,*,#55,.F.);
#48=ORIENTED_EDGE('',*,*,#54,.F.);
#49=ORIENTED_EDGE('',*,*,#55,.T.);
#50=ORIENTED_EDGE('',*,*,#56,.T.);
#51=ORIENTED_EDGE('',*,*,#57,.F.);
#52=ORIENTED_EDGE('',*,*,#56,.F.);
#53=ORIENTED_EDGE('',*,*,#57,.T.);
#54=EDGE_CURVE('',#58,#58,#62,.T.);
#55=EDGE_CURVE('',#59,#59,#63,.T.);
#56=EDGE_CURVE('',#60,#60,#64,.T.);
#57=EDGE_CURVE('',#61,#61,#65,.T.);
#58=VERTEX_POINT('',#172);
#59=VERTEX_POINT('',#174);
#60=VERTEX_POINT('',#180);
#61=VERTEX_POINT('',#182);
#62=CIRCLE('',#123,35.);
#63=CIRCLE('',#124,35.);
#64=CIRCLE('',#129,35.);
#65=CIRCLE('',#130,35.);
#66=EDGE_LOOP('',(#46));
#67=EDGE_LOOP('',(#47));
#68=EDGE_LOOP('',(#48));
#69=EDGE_LOOP('',(#49));
#70=EDGE_LOOP('',(#50));
#71=EDGE_LOOP('',(#51));
#72=EDGE_LOOP('',(#52));
#73=EDGE_LOOP('',(#53));
#74=FACE_BOUND('',#66,.T.);
#75=FACE_BOUND('',#67,.T.);
#76=FACE_BOUND('',#68,.T.);
#77=FACE_BOUND('',#69,.T.);
#78=FACE_BOUND('',#70,.T.);
#79=FACE_BOUND('',#71,.T.);
#80=FACE_BOUND('',#72,.T.);
#81=FACE_BOUND('',#73,.T.);
#82=CYLINDRICAL_SURFACE('',#122,35.);
#83=CYLINDRICAL_SURFACE('',#128,35.);
#84=ADVANCED_FACE('',(#74,#75),#82,.T.);
#85=ADVANCED_FACE('',(#76),#42,.F.);
#86=ADVANCED_FACE('',(#77),#43,.T.);
#87=ADVANCED_FACE('',(#78,#79),#83,.T.);
#88=ADVANCED_FACE('',(#80),#44,.F.);
#89=ADVANCED_FACE('',(#81),#45,.T.);
#90=CLOSED_SHELL('',(#84,#85,#86));
#91=CLOSED_SHELL('',(#87,#88,#89));
#92=STYLED_ITEM('',(#94),#107);
#93=STYLED_ITEM('',(#95),#108);
#94=PRESENTATION_STYLE_ASSIGNMENT((#96));
#95=PRESENTATION_STYLE_ASSIGNMENT((#97));
#96=SURFACE_STYLE_USAGE(.BOTH.,#98);
#97=SURFACE_STYLE_USAGE(.BOTH.,#99);
#98=SURFACE_SIDE_STYLE('',(#100));
#99=SURFACE_SIDE_STYLE('',(#101));
#100=SURFACE_STYLE_FILL_AREA(#102);
#101=SURFACE_STYLE_FILL_AREA(#103);
#102=FILL_AREA_STYLE('',(#104));
#103=FILL_AREA_STYLE('',(#105));
#104=FILL_AREA_STYLE_COLOUR('',#106);
#105=FILL_AREA_STYLE_COLOUR('',#106);
#106=COLOUR_RGB('',0.517647087574005,0.517647087574005,0.564705908298492);
#107=MANIFOLD_SOLID_BREP('',#90);
#108=MANIFOLD_SOLID_BREP('',#91);
#109=SHAPE_DEFINITION_REPRESENTATION(#206,#115);
#110=SHAPE_DEFINITION_REPRESENTATION(#205,#116);
#111=SHAPE_DEFINITION_REPRESENTATION(#208,#117);
#112=SHAPE_DEFINITION_REPRESENTATION(#210,#118);
#113=SHAPE_DEFINITION_REPRESENTATION(#212,#119);
#114=SHAPE_DEFINITION_REPRESENTATION(#214,#120);
#115=SHAPE_REPRESENTATION('33300003',(#121),#191);
#116=SHAPE_REPRESENTATION('33300003',(#121,#127,#133,#134,#135,#136),#190);
#117=SHAPE_REPRESENTATION('33300003_0',(#121),#192);
#118=SHAPE_REPRESENTATION('id77',(#121),#193);
#119=SHAPE_REPRESENTATION('50.9697.1_Standard',(#121),#194);
#120=SHAPE_REPRESENTATION('BREP_1',(#121),#195);
#121=AXIS2_PLACEMENT_3D('',#169,#137,#138);
#122=AXIS2_PLACEMENT_3D('',#170,#139,#140);
#123=AXIS2_PLACEMENT_3D('',#171,#141,#142);
#124=AXIS2_PLACEMENT_3D('',#173,#143,#144);
#125=AXIS2_PLACEMENT_3D('',#175,#145,#146);
#126=AXIS2_PLACEMENT_3D('',#176,#147,#148);
#127=AXIS2_PLACEMENT_3D('',#177,#149,#150);
#128=AXIS2_PLACEMENT_3D('',#178,#151,#152);
#129=AXIS2_PLACEMENT_3D('',#179,#153,#154);
#130=AXIS2_PLACEMENT_3D('',#181,#155,#156);
#131=AXIS2_PLACEMENT_3D('',#183,#157,#158);
#132=AXIS2_PLACEMENT_3D('',#184,#159,#160);
#133=AXIS2_PLACEMENT_3D('',#185,#161,#162);
#134=AXIS2_PLACEMENT_3D('',#186,#163,#164);
#135=AXIS2_PLACEMENT_3D('',#187,#165,#166);
#136=AXIS2_PLACEMENT_3D('',#188,#167,#168);
#137=DIRECTION('',(0.,0.,1.));
#138=DIRECTION('',(1.,0.,0.));
#139=DIRECTION('',(-1.,-2.63137362156566E-18,2.19334021250136E-16));
#140=DIRECTION('',(4.41607772353855E-16,-4.5102810375397E-17,1.));
#141=DIRECTION('',(-1.,-2.63137362156566E-18,2.19334021250136E-16));
#142=DIRECTION('',(-4.41607772353855E-16,4.5102810375397E-17,-1.));
#143=DIRECTION('',(-1.,-2.63137362156566E-18,2.19334021250136E-16));
#144=DIRECTION('',(-4.41607772353855E-16,4.5102810375397E-17,-1.));
#145=DIRECTION('',(-1.,-2.63137362156566E-18,2.19334021250136E-16));
#146=DIRECTION('',(4.41607772353855E-16,-4.5102810375397E-17,1.));
#147=DIRECTION('',(-1.,-2.63137362156566E-18,2.19334021250136E-16));
#148=DIRECTION('',(4.41607772353855E-16,-4.5102810375397E-17,1.));
#149=DIRECTION('',(0.,0.,1.));
#150=DIRECTION('',(1.,0.,0.));
#151=DIRECTION('',(-1.,4.75802770014432E-16,4.26958950961674E-16));
#152=DIRECTION('',(1.0422745798414E-15,6.93889390390723E-17,1.));
#153=DIRECTION('',(-1.,4.75802770014432E-16,4.26958950961674E-16));
#154=DIRECTION('',(-1.0422745798414E-15,-6.93889390390723E-17,-1.));
#155=DIRECTION('',(-1.,4.75802770014432E-16,4.26958950961674E-16));
#156=DIRECTION('',(-1.0422745798414E-15,-6.93889390390723E-17,-1.));
#157=DIRECTION('',(-1.,4.75802770014432E-16,4.26958950961674E-16));
#158=DIRECTION('',(1.0422745798414E-15,6.93889390390723E-17,1.));
#159=DIRECTION('',(-1.,4.75802770014432E-16,4.26958950961674E-16));
#160=DIRECTION('',(1.0422745798414E-15,6.93889390390723E-17,1.));
#161=DIRECTION('',(0.,0.,1.));
#162=DIRECTION('',(1.,0.,0.));
#163=DIRECTION('',(0.,0.,1.));
#164=DIRECTION('',(1.,0.,0.));
#165=DIRECTION('',(0.,0.,1.));
#166=DIRECTION('',(1.,0.,0.));
#167=DIRECTION('',(0.,0.,1.));
#168=DIRECTION('',(1.,0.,0.));
#169=CARTESIAN_POINT('',(0.,0.,0.));
#170=CARTESIAN_POINT('',(-29.4096432470166,75.,-1.09089644579376));
#171=CARTESIAN_POINT('',(-29.4096432470166,75.,-1.09089644579376));
#172=CARTESIAN_POINT('',(-29.4096432470166,75.,-36.0908964457938));
#173=CARTESIAN_POINT('',(-55.4096432470166,75.,-1.09089644579376));
#174=CARTESIAN_POINT('',(-55.4096432470166,75.,-36.0908964457938));
#175=CARTESIAN_POINT('',(-29.4096432470166,75.,-1.09089644579376));
#176=CARTESIAN_POINT('',(-55.4096432470166,75.,-1.09089644579376));
#177=CARTESIAN_POINT('',(0.,0.,0.));
#178=CARTESIAN_POINT('',(-29.4096432470166,-75.,-1.09089644579374));
#179=CARTESIAN_POINT('',(-29.4096432470166,-75.,-1.09089644579374));
#180=CARTESIAN_POINT('',(-29.4096432470166,-75.,-36.0908964457937));
#181=CARTESIAN_POINT('',(-55.4096432470166,-75.,-1.09089644579373));
#182=CARTESIAN_POINT('',(-55.4096432470166,-75.,-36.0908964457937));
#183=CARTESIAN_POINT('',(-29.4096432470166,-75.,-1.09089644579374));
#184=CARTESIAN_POINT('',(-55.4096432470166,-75.,-1.09089644579373));
#185=CARTESIAN_POINT('',(0.,0.,0.));
#186=CARTESIAN_POINT('',(0.,0.,0.));
#187=CARTESIAN_POINT('',(0.,0.,0.));
#188=CARTESIAN_POINT('',(0.,0.,0.));
#189=MECHANICAL_DESIGN_GEOMETRIC_PRESENTATION_REPRESENTATION('',(#92,#93),
#190);
#190=(
GEOMETRIC_REPRESENTATION_CONTEXT(3)
GLOBAL_UNCERTAINTY_ASSIGNED_CONTEXT((#196))
GLOBAL_UNIT_ASSIGNED_CONTEXT((#204,#203,#202))
REPRESENTATION_CONTEXT('33300003','TOP_LEVEL_ASSEMBLY_PART')
);
#191=(
GEOMETRIC_REPRESENTATION_CONTEXT(3)
GLOBAL_UNCERTAINTY_ASSIGNED_CONTEXT((#197))
GLOBAL_UNIT_ASSIGNED_CONTEXT((#204,#203,#202))
REPRESENTATION_CONTEXT('33300003','COMPONENT_PART')
);
#192=(
GEOMETRIC_REPRESENTATION_CONTEXT(3)
GLOBAL_UNCERTAINTY_ASSIGNED_CONTEXT((#198))
GLOBAL_UNIT_ASSIGNED_CONTEXT((#204,#203,#202))
REPRESENTATION_CONTEXT('33300003_0','COMPONENT_PART')
);
#193=(
GEOMETRIC_REPRESENTATION_CONTEXT(3)
GLOBAL_UNCERTAINTY_ASSIGNED_CONTEXT((#199))
GLOBAL_UNIT_ASSIGNED_CONTEXT((#204,#203,#202))
REPRESENTATION_CONTEXT('id77','COMPONENT_PART')
);
#194=(
GEOMETRIC_REPRESENTATION_CONTEXT(3)
GLOBAL_UNCERTAINTY_ASSIGNED_CONTEXT((#200))
GLOBAL_UNIT_ASSIGNED_CONTEXT((#204,#203,#202))
REPRESENTATION_CONTEXT('50.9697.1_Standard','COMPONENT_PART')
);
#195=(
GEOMETRIC_REPRESENTATION_CONTEXT(3)
GLOBAL_UNCERTAINTY_ASSIGNED_CONTEXT((#201))
GLOBAL_UNIT_ASSIGNED_CONTEXT((#204,#203,#202))
REPRESENTATION_CONTEXT('BREP_1','COMPONENT_PART')
);
#196=UNCERTAINTY_MEASURE_WITH_UNIT(LENGTH_MEASURE(0.005),#204,
'DISTANCE_ACCURACY_VALUE','Maximum Tolerance applied to model');
#197=UNCERTAINTY_MEASURE_WITH_UNIT(LENGTH_MEASURE(0.005),#204,
'DISTANCE_ACCURACY_VALUE','Maximum Tolerance applied to model');
#198=UNCERTAINTY_MEASURE_WITH_UNIT(LENGTH_MEASURE(0.005),#204,
'DISTANCE_ACCURACY_VALUE','Maximum Tolerance applied to model');
#199=UNCERTAINTY_MEASURE_WITH_UNIT(LENGTH_MEASURE(0.005),#204,
'DISTANCE_ACCURACY_VALUE','Maximum Tolerance applied to model');
#200=UNCERTAINTY_MEASURE_WITH_UNIT(LENGTH_MEASURE(0.005),#204,
'DISTANCE_ACCURACY_VALUE','Maximum Tolerance applied to model');
#201=UNCERTAINTY_MEASURE_WITH_UNIT(LENGTH_MEASURE(0.005),#204,
'DISTANCE_ACCURACY_VALUE','Maximum Tolerance applied to model');
#202=(
NAMED_UNIT(*)
SI_UNIT($,.STERADIAN.)
SOLID_ANGLE_UNIT()
);
#203=(
NAMED_UNIT(*)
PLANE_ANGLE_UNIT()
SI_UNIT($,.RADIAN.)
);
#204=(
LENGTH_UNIT()
NAMED_UNIT(*)
SI_UNIT(.MILLI.,.METRE.)
);
#205=PRODUCT_DEFINITION_SHAPE('','',#216);
#206=PRODUCT_DEFINITION_SHAPE('','',#217);
#207=PRODUCT_DEFINITION_SHAPE(' ','NAUO PRDDFN',#23);
#208=PRODUCT_DEFINITION_SHAPE('','',#218);
#209=PRODUCT_DEFINITION_SHAPE(' ','NAUO PRDDFN',#24);
#210=PRODUCT_DEFINITION_SHAPE('','',#219);
#211=PRODUCT_DEFINITION_SHAPE(' ','NAUO PRDDFN',#25);
#212=PRODUCT_DEFINITION_SHAPE('','',#220);
#213=PRODUCT_DEFINITION_SHAPE(' ','NAUO PRDDFN',#26);
#214=PRODUCT_DEFINITION_SHAPE('','',#221);
#215=PRODUCT_DEFINITION_SHAPE(' ','NAUO PRDDFN',#27);
#216=PRODUCT_DEFINITION('','',#228,#222);
#217=PRODUCT_DEFINITION('','',#229,#223);
#218=PRODUCT_DEFINITION('','',#230,#224);
#219=PRODUCT_DEFINITION('','',#231,#225);
#220=PRODUCT_DEFINITION('','',#232,#226);
#221=PRODUCT_DEFINITION('','',#233,#227);
#222=PRODUCT_DEFINITION_CONTEXT('',#259,'design');
#223=PRODUCT_DEFINITION_CONTEXT('',#259,'design');
#224=PRODUCT_DEFINITION_CONTEXT('',#259,'design');
#225=PRODUCT_DEFINITION_CONTEXT('',#259,'design');
#226=PRODUCT_DEFINITION_CONTEXT('',#259,'design');
#227=PRODUCT_DEFINITION_CONTEXT('',#259,'design');
#228=PRODUCT_DEFINITION_FORMATION_WITH_SPECIFIED_SOURCE('','',#240,
 .NOT_KNOWN.);
#229=PRODUCT_DEFINITION_FORMATION_WITH_SPECIFIED_SOURCE('','',#241,
 .NOT_KNOWN.);
#230=PRODUCT_DEFINITION_FORMATION_WITH_SPECIFIED_SOURCE('','',#242,
 .NOT_KNOWN.);
#231=PRODUCT_DEFINITION_FORMATION_WITH_SPECIFIED_SOURCE('','',#243,
 .NOT_KNOWN.);
#232=PRODUCT_DEFINITION_FORMATION_WITH_SPECIFIED_SOURCE('','',#244,
 .NOT_KNOWN.);
#233=PRODUCT_DEFINITION_FORMATION_WITH_SPECIFIED_SOURCE('','',#245,
 .NOT_KNOWN.);
#234=PRODUCT_RELATED_PRODUCT_CATEGORY('','',(#240));
#235=PRODUCT_RELATED_PRODUCT_CATEGORY('','',(#241));
#236=PRODUCT_RELATED_PRODUCT_CATEGORY('','',(#242));
#237=PRODUCT_RELATED_PRODUCT_CATEGORY('','',(#243));
#238=PRODUCT_RELATED_PRODUCT_CATEGORY('','',(#244));
#239=PRODUCT_RELATED_PRODUCT_CATEGORY('','',(#245));
#240=PRODUCT('33300003','33300003','33300003',(#252));
#241=PRODUCT('33300003','33300003','33300003',(#253));
#242=PRODUCT('33300003_0','33300003_0','33300003_0',(#254));
#243=PRODUCT('id77','id77','id77',(#255));
#244=PRODUCT('50.9697.1_Standard','50.9697.1_Standard',
'50.9697.1_Standard',(#256));
#245=PRODUCT('BREP_1','BREP_1','BREP_1',(#257));
#246=PRODUCT_CATEGORY('','');
#247=PRODUCT_CATEGORY('','');
#248=PRODUCT_CATEGORY('','');
#249=PRODUCT_CATEGORY('','');
#250=PRODUCT_CATEGORY('','');
#251=PRODUCT_CATEGORY('','');
#252=PRODUCT_CONTEXT('',#259,'mechanical');
#253=PRODUCT_CONTEXT('',#259,'mechanical');
#254=PRODUCT_CONTEXT('',#259,'mechanical');
#255=PRODUCT_CONTEXT('',#259,'mechanical');
#256=PRODUCT_CONTEXT('',#259,'mechanical');
#257=PRODUCT_CONTEXT('',#259,'mechanical');
#258=APPLICATION_PROTOCOL_DEFINITION('international standard',
'automotive_design',2010,#259);
#259=APPLICATION_CONTEXT(
'core data for automotive mechanical design processes');
ENDSEC;
END-ISO-10303-21;
